Jehova Jireh Tabs by Deliverance

Higher Praise - Guitar Chords, Lyrics  GuitarTabs -  Praise nad Worship Music And Christian Songs

  Lyrics Guitar Chords Tabs
  Lyrics Chords Tabs By Title
  Lyrics Chords Tab By Artist
  
Popular Lyrics, Chords Tab   Power Point Lyrics
  Christmas Lyrics
  Praise & Worship Songs
  Audios, Praise & Worship
  Videos Praise & Worship
  Midis Praise & Worship
  Praise Worship Questions
  Videos Christian Songs
  Outlines & Illustrations
  9344 Sermon Outlines
  N.T. Sermon Outlines
  O.T. Sermon Outlines
  Special Guest Outlines
  10.000 Illustrations
  Free Bible College Studies
  Sunday School Studies
  Greatest Preachers Profiles
  400,000 Clipart & Graphics
  Church Resource Links
  Audio & Video Sermons
  2895 Audio Sermons
  291 Special Guest Sermons
  85 Sermon Videos
  Videos Of Great Preachers
  Complete Audio Bible
  Childrens Study & Movies
  Children's NT Lessons
  Children's OT Lessons

  98 Children's Midis
  Gospel For Kids Movie
  Children's JESUS Film
  Christian Children Videos

  TV - Movies & Videos
  Christian Television
  Passion Of The Christ
  Christian Movie Library
  Prophecy Movies & Videos
  712 Praise Worship Videos
  JESUS Film -Movie
  Childrens JESUS Movie
  Gospel For Kids Movie
  85 Sermon Videos
  Noah, Sodom, Sinai, Ark
  15,000 Videos - Songs Films
  Praise Videos #1 & #2
  Testimonies
  Tsunami Videos Photos
  TBN TV Live

  Download Songs Sermons
  Audio Praise & Worship
  Audio Sermons
  Clipart & Web Graphics
  Church Administration
  Bible Study Software
  Screen Savers Software
  Verse A Day Software
  Educational Games
  Trade Center Photos
  Christian Software Search
  Info. Clipart Preach Study
  Praise Worship Questions
  Free Bible College Course
  400,000 Clipart & Graphics
  10.000 Illustrations
  Greatest Preachers Profiles
  Complete Talking Bible
  Family Christian Chat

  Prayer For All Needs
  Our Statement Of Faith 
  News, Submit Your News
  Current News
  Archived News
  Submit News
  News Letter
/
  Interact, Prayer & Submit
  Prayer For All Needs
  
Submit Lyrics, Sermons
  
Contact Higher Praise
  
Advertising
  Privacy Policy
'
0-9 A B C D E F G H I J K L M N O P Q R S T U V W X Y Z
.

//
Click For Plain Text...Version Of This File
 

Jehova Jireh


by Deliverance

Share |



  Song:Jehova Jireh
  Band:Deliverance
  CD:Deliverance
  Copyright:c 1998 KMG Records,Inc.


     INTRO:gtr.1

  e--------------------------
Play 4x's
  B--------------------------

  G--------------------------

  D--------------------------

  A--2---5--3-5--3-5-7-9-10--

  E--0---3--1-3--1-3-5-7--8--


     INTRO:gtr.2
     play this part 1 time               play this part3x's
  e------------------------------------
-12-10-8-7-8-10-5-7-8-10-

  B------------------------------------
-------------------------

  G--9-7-5-4-5-7-2-4-5-7-5-4-2-4-5-7-9-
-------------------------

  D------------------------------------
-------------------------

  A------------------------------------
-------------------------

  E------------------------------------
-------------------------


  e-8-7-5-7-8-10-12-

  B-----------------

  G-----------------

  D-----------------

  A-----------------

  E-----------------


   RIFF1:play 1 time then verse starts and play 2x's

    Jehova Jireh                       my provider...............
  e--------------------------------------------------------------

  B--------------------------------------------------------------

  G--------------------------------------------------------------

  D--9-------------------------------9-10-------------10--10-9-7-

  A--7-------------------------------7--8--------------8---8-7-5-

  E--0-000-000-000-000-000-000-000-000---000-000-000-000-00------




    ....................................
  e-------------------------------------

  B-------------------------------------

  G-------------------------------------

  D-------------5-------4-2--4--5--7--9-

  A-------------3-------2-0--2--3--5--7-

  E--000-000-000-000-000----------------


   RIFF2:
    The Lord will...........................glory
  e-----------------------------------------------------------

  B-----------------------------------------------------------

  G-----------------------------------------------------------

  D--2~~~~~~~~~-----------------------------2~~~--------------

  A--0~~~~~~~~~0-3-0-5~~~~~~~xx5xx5-5~~~~~~~0~~~3-2-0-3-2-0---

  E-----------------33~~~~~~~xx3xx3-3~~~~~~~---------3-----3--



    The Lord will............................Jehova Jireh.........
  e----------------------------------------------------------------

  B----------------------------------------------------------------

  G----------------------------------------------------------------

  D--2~~~~~~~~~----------------------------------------------------

  A--0~~~~~~~~~0-3-0-5~~~~~~~xx5xx5-5~~~~~~~~5~~~~~~~~~~~3~~~~~~~2-

  E-----------------33~~~~~~~xx3xx3-3~~~~~~~~3~~~~~~~~~~~1~~~~~~~0-



    me  of me of me
  e-----------------

  B-----------------
this is what they play as the ending.
  G-----------------

  D--2--4--5--7--9--

  A--0--2--3--5--7--

  E-----------------


   That's pretty much it you can figure the different nuances
   by listening to the CD.I am thinking of doing the solo depending
   on the feed back.


   Do not archive without permission
   Any Q's or com's email Ed at

 

 
 
 
HigherPraise, Higher Praise, HigherPraise, Higher Praise, HigherPraise
  15,000 Videos & Movies
  Sign Up |.Upload | LogIn?
  15,000 Videos Movies Song
/
 
 
  Higher Praise Other Sites
    HigherPraise.org/
Praise And Worship
www.higherpraise.org

HigherPraise.net
Christian Resources
www.higherpraise.net

ChristianLyrics.org

Lyrics And Chrords
www.christianlyrics.org

ChristianChordsLyrics

Lyrics And Chrords
www.christianchordslyrics.com

ChristianChordLyrics

Lyrics And Chrords
www.christianchordlyrics.com

WorshipLyrics.org
10.000 Illustrations
www.worshiplyrics.org

WorshipLyrics.net
10.000 Illustrations
www.worshiplyrics.net

PraiseLyrics.com
PowerPoint Lyrics

www.praiselyrics.com

PraiseLyrics.org
PowerPoint Lyrics

www.praiselyrics.org

1GodTube.com
Chistian Videos

www1godtube..com

OneGodTube.com
Chistian Videos

www.onegodtube..com
/
Copyright 2014, Higher Praise™ HigherPraise™,Inc. All rights reserved. Terms of Use